ISO-10303-21;
HEADER;
FILE_DESCRIPTION (( 'STEP AP214' ),
    '1' );
FILE_NAME ('FULLVAC BP1KF10.STEP',
    '2019-03-26T13:32:48',
    ( '' ),
    ( '' ),
    'SwSTEP 2.0',
    'SolidWorks 2017',
    '' );
FILE_SCHEMA (( 'AUTOMOTIVE_DESIGN' ));
ENDSEC;

DATA;
#1 = UNCERTAINTY_MEASURE_WITH_UNIT (LENGTH_MEASURE( 1.000000000000000100E-005 ), #208, 'distance_accuracy_value', 'NONE');
#2 = CARTESIAN_POINT ( 'NONE',  ( 1.801401161689886600, 2.206080166643846300E-016, 14.25881904510250200 ) ) ;
#3 = CARTESIAN_POINT ( 'NONE',  ( 1.801401161689889700, -28.51763809020500400, -14.25881904510250200 ) ) ;
#4 = ORIENTED_EDGE ( 'NONE', *, *, #113, .F. ) ;
#5 = PLANE ( 'NONE',  #183 ) ;
#6 =( NAMED_UNIT ( * ) PLANE_ANGLE_UNIT ( ) SI_UNIT ( $, .RADIAN. ) );
#7 = CIRCLE ( 'NONE', #204, 14.25881904510250200 ) ;
#8 = EDGE_LOOP ( 'NONE', ( #229 ) ) ;
#9 = CARTESIAN_POINT ( 'NONE',  ( 1.801401161689886600, 2.206080166643847300E-016, -14.25881904510250200 ) ) ;
#10 = APPLICATION_CONTEXT ( 'automotive_design' ) ;
#11 = UNCERTAINTY_MEASURE_WITH_UNIT (LENGTH_MEASURE( 1.000000000000000100E-005 ), #222, 'distance_accuracy_value', 'NONE');
#12 = CARTESIAN_POINT ( 'NONE',  ( 2.499999999999999600, 6.099999999999999600, 0.0000000000000000000 ) ) ;
#13 = AXIS2_PLACEMENT_3D ( 'NONE', #166, #261, #213 ) ;
#14 = EDGE_LOOP ( 'NONE', ( #33 ) ) ;
#15 = CARTESIAN_POINT ( 'NONE',  ( 0.03407417371093174300, 4.172882776868342700E-018, 7.663064932377370300 ) ) ;
#16 = DIRECTION ( 'NONE',  ( -1.224646799147350000E-016, 1.000000000000000000, 0.0000000000000000000 ) ) ;
#17 = FILL_AREA_STYLE_COLOUR ( '', #281 ) ;
#18 = CARTESIAN_POINT ( 'NONE',  ( -1.813517205190215300E-015, 14.80849177454970100, 7.404245887274850400 ) ) ;
#19 = EDGE_LOOP ( 'NONE', ( #128 ) ) ;
#20 = DIRECTION ( 'NONE',  ( -1.224646799147350000E-016, 1.000000000000000000, 0.0000000000000000000 ) ) ;
#21 = CARTESIAN_POINT ( 'NONE',  ( 0.03407417372626843400, 4.172882778746542000E-018, 0.0000000000000000000 ) ) ;
#22 = CARTESIAN_POINT ( 'NONE',  ( 1.923223286273251200, 29.42693080706730800, -14.71346540353365400 ) ) ;
#23 = CARTESIAN_POINT ( 'NONE',  ( 2.296642442585010300, -30.00000000000000400, 15.00000000000000200 ) ) ;
#24 = AXIS2_PLACEMENT_3D ( 'NONE', #152, #195, #214 ) ;
#25 = CARTESIAN_POINT ( 'NONE',  ( 2.767326987978963300, -29.99999999999999600, -14.99999999999999800 ) ) ;
#26 = ORIENTED_EDGE ( 'NONE', *, *, #260, .F. ) ;
#27 = STYLED_ITEM ( 'NONE', ( #231 ), #57 ) ;
#28 = ADVANCED_FACE ( 'NONE', ( #54, #165 ), #232, .T. ) ;
#29 = PRODUCT_DEFINITION_SHAPE ( 'NONE', 'NONE',  #230 ) ;
#30 = CARTESIAN_POINT ( 'NONE',  ( 0.03407417372626767700, 7.663064932373260700, 0.0000000000000000000 ) ) ;
#31 = SURFACE_STYLE_USAGE ( .BOTH. , #99 ) ;
#32 = EDGE_LOOP ( 'NONE', ( #249 ) ) ;
#33 = ORIENTED_EDGE ( 'NONE', *, *, #167, .T. ) ;
#34 = DIRECTION ( 'NONE',  ( -9.130123557772668300E-017, 1.000000000000000000, 0.0000000000000000000 ) ) ;
#35 = CARTESIAN_POINT ( 'NONE',  ( 0.03407417371093174300, 4.172882776868326500E-018, -7.663064932377370300 ) ) ;
#36 = ORIENTED_EDGE ( 'NONE', *, *, #119, .T. ) ;
#37 = CARTESIAN_POINT ( 'NONE',  ( 8.308920733193583900E-017, 1.017549318027457400E-032, 7.491762493218845800 ) ) ;
#38 = FACE_OUTER_BOUND ( 'NONE', #93, .T. ) ;
#39 = MECHANICAL_DESIGN_GEOMETRIC_PRESENTATION_REPRESENTATION (  '', ( #27 ), #266 ) ;
#40 = CARTESIAN_POINT ( 'NONE',  ( 1.813517205190215300E-015, -14.80849177454970100, 7.404245887274850400 ) ) ;
#41 = DIRECTION ( 'NONE',  ( -1.156482317317871500E-016, 1.000000000000000000, 0.0000000000000000000 ) ) ;
#42 = AXIS2_PLACEMENT_3D ( 'NONE', #53, #142, #49 ) ;
#43 = ORIENTED_EDGE ( 'NONE', *, *, #113, .T. ) ;
#44 = CARTESIAN_POINT ( 'NONE',  ( 2.296642442585006700, 2.812575816097689400E-016, -15.00000000000000000 ) ) ;
#45 = VERTEX_POINT ( 'NONE', #30 ) ;
#46 = CARTESIAN_POINT ( 'NONE',  ( 1.801401161689883100, 28.51763809020500400, -14.25881904510250200 ) ) ;
#47 = FACE_OUTER_BOUND ( 'NONE', #14, .T. ) ;
#48 = CARTESIAN_POINT ( 'NONE',  ( -9.067586025951072600E-016, 7.404245887274849600, -14.80849177454969900 ) ) ;
#49 = DIRECTION ( 'NONE',  ( 1.000000000000000000, 0.0000000000000000000, 0.0000000000000000000 ) ) ;
#50 = EDGE_LOOP ( 'NONE', ( #162 ) ) ;
#51 = EDGE_CURVE ( 'NONE', #58, #58, #256, .T. ) ;
#52 = CARTESIAN_POINT ( 'NONE',  ( 5.000000000000000000, 6.100000000000000500, 0.0000000000000000000 ) ) ;
#53 = CARTESIAN_POINT ( 'NONE',  ( 0.0000000000000000000, 0.0000000000000000000, 0.0000000000000000000 ) ) ;
#54 = FACE_BOUND ( 'NONE', #50, .T. ) ;
#55 = ADVANCED_FACE ( 'NONE', ( #210, #194 ), #121, .T. ) ;
#56 = CARTESIAN_POINT ( 'NONE',  ( 0.01142320932989461200, -15.15706076493379800, 7.578530382466898800 ) ) ;
#57 = ADVANCED_BREP_SHAPE_REPRESENTATION ( 'FULLVAC BP1KF10', ( #160, #42 ), #286 ) ;
#58 = VERTEX_POINT ( 'NONE', #278 ) ;
#59 = PLANE ( 'NONE',  #131 ) ;
#60 = CARTESIAN_POINT ( 'NONE',  ( -1.751863384126590400E-015, 14.98352498643769500, -7.491762493218847600 ) ) ;
#61 = CYLINDRICAL_SURFACE ( 'NONE', #197, 6.099999999999999600 ) ;
#62 = FACE_BOUND ( 'NONE', #206, .T. ) ;
#63 = DIRECTION ( 'NONE',  ( -1.156482317317871500E-016, 1.000000000000000000, 0.0000000000000000000 ) ) ;
#64 = AXIS2_PLACEMENT_3D ( 'NONE', #267, #174, #41 ) ;
#65 = DIRECTION ( 'NONE',  ( -1.421904488505579700E-016, 1.000000000000000000, 0.0000000000000000000 ) ) ;
#66 = CARTESIAN_POINT ( 'NONE',  ( 1.923223286273255000, 2.355269241580199300E-016, 14.71346540353365400 ) ) ;
#67 = CARTESIAN_POINT ( 'NONE',  ( 2.296642442585006700, 2.812575816097689400E-016, -15.00000000000000000 ) ) ;
#68 = CARTESIAN_POINT ( 'NONE',  ( -9.067586025951074600E-016, 7.404245887274850400, -4.533793012975550100E-016 ) ) ;
#69 = CARTESIAN_POINT ( 'NONE',  ( 1.801401161689886600, 2.206080166643847300E-016, -14.25881904510250200 ) ) ;
#70 = CARTESIAN_POINT ( 'NONE',  ( -9.067586025951074600E-016, 7.404245887274850400, -4.533793012975550100E-016 ) ) ;
#71 = EDGE_LOOP ( 'NONE', ( #43 ) ) ;
#72 = CARTESIAN_POINT ( 'NONE',  ( 5.000000000000000000, 15.00000000000000000, 0.0000000000000000000 ) ) ;
#73 = ADVANCED_FACE ( 'NONE', ( #233, #47 ), #280, .T. ) ;
#74 = APPLICATION_PROTOCOL_DEFINITION ( 'draft international standard', 'automotive_design', 1998, #10 ) ;
#75 = AXIS2_PLACEMENT_3D ( 'NONE', #189, #209, #235 ) ;
#76 =( NAMED_UNIT ( * ) SI_UNIT ( $, .STERADIAN. ) SOLID_ANGLE_UNIT ( ) );
#77 = FACE_OUTER_BOUND ( 'NONE', #147, .T. ) ;
#78 = CIRCLE ( 'NONE', #275, 7.663064932373260700 ) ;
#79 = AXIS2_PLACEMENT_3D ( 'NONE', #133, #109, #117 ) ;
#80 = CARTESIAN_POINT ( 'NONE',  ( 3.750000000000000000, 4.592425496802579900E-016, 0.0000000000000000000 ) ) ;
#81 = CARTESIAN_POINT ( 'NONE',  ( 0.01142320932989275400, 1.398939674184323100E-018, -7.578530382466898800 ) ) ;
#82 = CARTESIAN_POINT ( 'NONE',  ( 0.0000000000000000000, 0.0000000000000000000, 7.404245887274850400 ) ) ;
#83 = VERTEX_POINT ( 'NONE', #52 ) ;
#84 = EDGE_LOOP ( 'NONE', ( #228 ) ) ;
#85 = CARTESIAN_POINT ( 'NONE',  ( 1.918041798790462400E-015, -14.98352498643769500, 7.491762493218847600 ) ) ;
#86 = DIRECTION ( 'NONE',  ( -1.216596879790139900E-016, 1.000000000000000000, 0.0000000000000000000 ) ) ;
#87 = ORIENTED_EDGE ( 'NONE', *, *, #135, .F. ) ;
#88 = CARTESIAN_POINT ( 'NONE',  ( 1.923223286273258600, -29.42693080706730800, -14.71346540353365400 ) ) ;
#89 = PRESENTATION_LAYER_ASSIGNMENT (  '', '', ( #27 ) ) ;
#90 = DIRECTION ( 'NONE',  ( 1.000000000000000000, 1.224646799147350000E-016, 0.0000000000000000000 ) ) ;
#91 = DIRECTION ( 'NONE',  ( -1.421904488505579700E-016, 1.000000000000000000, 0.0000000000000000000 ) ) ;
#92 = CARTESIAN_POINT ( 'NONE',  ( 1.801401161689889700, -28.51763809020500400, 14.25881904510250200 ) ) ;
#93 = EDGE_LOOP ( 'NONE', ( #203 ) ) ;
#94 =( NAMED_UNIT ( * ) PLANE_ANGLE_UNIT ( ) SI_UNIT ( $, .RADIAN. ) );
#95 = ADVANCED_FACE ( 'NONE', ( #62, #287 ), #59, .T. ) ;
#96 =( GEOMETRIC_REPRESENTATION_CONTEXT ( 3 ) GLOBAL_UNCERTAINTY_ASSIGNED_CONTEXT ( ( #11 ) ) GLOBAL_UNIT_ASSIGNED_CONTEXT ( ( #222, #94, #137 ) ) REPRESENTATION_CONTEXT ( 'NONE', 'WORKASPACE' ) );
#97 = CARTESIAN_POINT ( 'NONE',  ( -9.067586025951074600E-016, 7.404245887274850400, -8.673617379884035500E-016 ) ) ;
#98 = EDGE_LOOP ( 'NONE', ( #187 ) ) ;
#99 = SURFACE_SIDE_STYLE ('',( #127 ) ) ;
#100 = PRODUCT_RELATED_PRODUCT_CATEGORY ( 'part', '', ( #257 ) ) ;
#101 = ADVANCED_FACE ( 'NONE', ( #225 ), #110, .T. ) ;
#102 = SURFACE_STYLE_FILL_AREA ( #216 ) ;
#103 = EDGE_LOOP ( 'NONE', ( #290 ) ) ;
#104 = CARTESIAN_POINT ( 'NONE',  ( 0.01142320932989275400, 1.398939674184323100E-018, -7.578530382466898800 ) ) ;
#105 = CARTESIAN_POINT ( 'NONE',  ( 0.03407417371093362400, -15.32612986475473900, 7.663064932377369400 ) ) ;
#106 = CIRCLE ( 'NONE', #211, 15.00000000000000000 ) ;
#107 = FACE_OUTER_BOUND ( 'NONE', #173, .T. ) ;
#108 = CARTESIAN_POINT ( 'NONE',  ( 1.801401161677173200, -1.236597168850831500E-032, -7.522201285906211600E-049 ) ) ;
#109 = DIRECTION ( 'NONE',  ( -1.000000000000000000, -1.224646799147350000E-016, -0.0000000000000000000 ) ) ;
#110 = PLANE ( 'NONE',  #236 ) ;
#111 = DIRECTION ( 'NONE',  ( 1.000000000000000000, 1.224646799147350000E-016, 0.0000000000000000000 ) ) ;
#112 = CIRCLE ( 'NONE', #223, 6.099999999999999600 ) ;
#113 = EDGE_CURVE ( 'NONE', #239, #239, #112, .T. ) ;
#114 = CARTESIAN_POINT ( 'NONE',  ( 1.918041798790462400E-015, -14.98352498643769500, -7.491762493218847600 ) ) ;
#115 = DIRECTION ( 'NONE',  ( 1.224646799147350000E-016, -1.000000000000000000, 0.0000000000000000000 ) ) ;
#116 = EDGE_LOOP ( 'NONE', ( #87 ) ) ;
#117 = DIRECTION ( 'NONE',  ( -1.421904488505579700E-016, 1.000000000000000000, 0.0000000000000000000 ) ) ;
#118 = CARTESIAN_POINT ( 'NONE',  ( 2.767326987978960200, 3.388998138022520500E-016, -15.00000000000000000 ) ) ;
#119 = EDGE_CURVE ( 'NONE', #263, #263, #283, .T. ) ;
#120 = APPLICATION_PROTOCOL_DEFINITION ( 'draft international standard', 'automotive_design', 1998, #123 ) ;
#121 = CYLINDRICAL_SURFACE ( 'NONE', #234, 4.750000000000000000 ) ;
#122 = ADVANCED_FACE ( 'NONE', ( #107, #215 ), #158, .T. ) ;
#123 = APPLICATION_CONTEXT ( 'automotive_design' ) ;
#124 = PRODUCT_CONTEXT ( 'NONE', #123, 'mechanical' ) ;
#125 = FACE_OUTER_BOUND ( 'NONE', #32, .T. ) ;
#126 = UNCERTAINTY_MEASURE_WITH_UNIT (LENGTH_MEASURE( 1.000000000000000100E-005 ), #205, 'distance_accuracy_value', 'NONE');
#127 = SURFACE_STYLE_FILL_AREA ( #251 ) ;
#128 = ORIENTED_EDGE ( 'NONE', *, *, #51, .F. ) ;
#129 = COLOUR_RGB ( '',0.7450980392156862900, 0.7450980392156862900, 0.7450980392156862900 ) ;
#130 = EDGE_LOOP ( 'NONE', ( #26 ) ) ;
#131 = AXIS2_PLACEMENT_3D ( 'NONE', #170, #268, #20 ) ;
#132 = CARTESIAN_POINT ( 'NONE',  ( 8.308920733193583900E-017, 1.017549318027457400E-032, -7.491762493218845800 ) ) ;
#133 = CARTESIAN_POINT ( 'NONE',  ( 5.000000000000000900, 6.123233995736768300E-016, 0.0000000000000000000 ) ) ;
#134 = CARTESIAN_POINT ( 'NONE',  ( 1.801401161689883100, 28.51763809020500400, 14.25881904510250200 ) ) ;
#135 = EDGE_CURVE ( 'NONE', #259, #259, #277, .T. ) ;
#136 = CARTESIAN_POINT ( 'NONE',  ( 1.923223286273255000, 2.355269241580199300E-016, -14.71346540353365400 ) ) ;
#137 =( NAMED_UNIT ( * ) SI_UNIT ( $, .STERADIAN. ) SOLID_ANGLE_UNIT ( ) );
#138 = SURFACE_STYLE_USAGE ( .BOTH. , #273 ) ;
#139 = VERTEX_POINT ( 'NONE', #97 ) ;
#140 = DIRECTION ( 'NONE',  ( 1.000000000000000000, 1.224646799147350000E-016, 0.0000000000000000000 ) ) ;
#141 = ORIENTED_EDGE ( 'NONE', *, *, #119, .F. ) ;
#142 = DIRECTION ( 'NONE',  ( 0.0000000000000000000, 0.0000000000000000000, 1.000000000000000000 ) ) ;
#143 = FACE_OUTER_BOUND ( 'NONE', #269, .T. ) ;
#144 = ADVANCED_FACE ( 'NONE', ( #153, #38 ), #186, .T. ) ;
#145 = PRODUCT_DEFINITION_FORMATION_WITH_SPECIFIED_SOURCE ( 'ANY', '', #257, .NOT_KNOWN. ) ;
#146 = FACE_OUTER_BOUND ( 'NONE', #103, .T. ) ;
#147 = EDGE_LOOP ( 'NONE', ( #264 ) ) ;
#148 = EDGE_LOOP ( 'NONE', ( #219 ) ) ;
#149 = CARTESIAN_POINT ( 'NONE',  ( 0.03407417371092987000, 15.32612986475473900, 7.663064932377369400 ) ) ;
#150 = CARTESIAN_POINT ( 'NONE',  ( 0.01142320932989461200, -15.15706076493379800, -7.578530382466898800 ) ) ;
#151 = EDGE_CURVE ( 'NONE', #45, #45, #78, .T. ) ;
#152 = CARTESIAN_POINT ( 'NONE',  ( 2.500000000000000400, 3.061616997868393500E-016, 0.0000000000000000000 ) ) ;
#153 = FACE_BOUND ( 'NONE', #148, .T. ) ;
#154 = EDGE_CURVE ( 'NONE', #83, #83, #177, .T. ) ;
#155 = CARTESIAN_POINT ( 'NONE',  ( 2.296642442585003200, 30.00000000000000400, 15.00000000000000200 ) ) ;
#156 = CARTESIAN_POINT ( 'NONE',  ( 2.767326987978956600, 29.99999999999999600, -14.99999999999999800 ) ) ;
#157 = CARTESIAN_POINT ( 'NONE',  ( 9.067586025951074600E-016, -7.404245887274850400, 1.360137903892664900E-015 ) ) ;
#158 = CYLINDRICAL_SURFACE ( 'NONE', #188, 15.00000000000000000 ) ;
#159 = CARTESIAN_POINT ( 'NONE',  ( 2.767326987978960200, 3.388998138022520500E-016, 15.00000000000000000 ) ) ;
#160 = MANIFOLD_SOLID_BREP ( '\X2\5BE69AD4\X0\1', #240 ) ;
#161 =( NAMED_UNIT ( * ) SI_UNIT ( $, .STERADIAN. ) SOLID_ANGLE_UNIT ( ) );
#162 = ORIENTED_EDGE ( 'NONE', *, *, #154, .T. ) ;
#163 = CARTESIAN_POINT ( 'NONE',  ( 2.767326987978960200, 15.00000000000000000, 0.0000000000000000000 ) ) ;
#164 = CARTESIAN_POINT ( 'NONE',  ( 0.03407417371093362400, -15.32612986475473900, -7.663064932377369400 ) ) ;
#165 = FACE_OUTER_BOUND ( 'NONE', #84, .T. ) ;
#166 = CARTESIAN_POINT ( 'NONE',  ( 5.000000000000000000, 6.099999999999999600, 0.0000000000000000000 ) ) ;
#167 = EDGE_CURVE ( 'NONE', #139, #139, #254, .T. ) ;
#168 = CARTESIAN_POINT ( 'NONE',  ( 0.01142320932989275400, 1.398939674184338500E-018, 7.578530382466898800 ) ) ;
#169 = EDGE_LOOP ( 'NONE', ( #141 ) ) ;
#170 = CARTESIAN_POINT ( 'NONE',  ( 2.500000000000000000, 4.750000000000000000, 0.0000000000000000000 ) ) ;
#171 = CARTESIAN_POINT ( 'NONE',  ( 8.308920733193583900E-017, 1.017549318027457400E-032, -7.491762493218845800 ) ) ;
#172 = CARTESIAN_POINT ( 'NONE',  ( 0.0000000000000000000, 0.0000000000000000000, -7.404245887274850400 ) ) ;
#173 = EDGE_LOOP ( 'NONE', ( #274 ) ) ;
#174 = DIRECTION ( 'NONE',  ( 1.000000000000000000, 1.224646799147350000E-016, 0.0000000000000000000 ) ) ;
#175 = DIRECTION ( 'NONE',  ( 1.000000000000000000, 1.224646799147350000E-016, 0.0000000000000000000 ) ) ;
#176 = CARTESIAN_POINT ( 'NONE',  ( 2.296642442585010300, -30.00000000000000400, -15.00000000000000200 ) ) ;
#177 = CIRCLE ( 'NONE', #79, 6.099999999999999600 ) ;
#178 = CARTESIAN_POINT ( 'NONE',  ( -9.067586025951076600E-016, 7.404245887274851300, 14.80849177454969900 ) ) ;
#179 = CARTESIAN_POINT ( 'NONE',  ( 5.000000000000001800, 6.123233995736768300E-016, 0.0000000000000000000 ) ) ;
#180 = CARTESIAN_POINT ( 'NONE',  ( 2.767326987978960200, 3.388998138022520500E-016, -15.00000000000000000 ) ) ;
#181 = FILL_AREA_STYLE_COLOUR ( '', #129 ) ;
#182 = CARTESIAN_POINT ( 'NONE',  ( 2.500000000000000000, 4.750000000000000000, 0.0000000000000000000 ) ) ;
#183 = AXIS2_PLACEMENT_3D ( 'NONE', #200, #272, #115 ) ;
#184 = DIRECTION ( 'NONE',  ( 0.0000000000000000000, 0.0000000000000000000, -1.000000000000000000 ) ) ;
#185 = ADVANCED_FACE ( 'NONE', ( #77 ), #5, .T. ) ;
#186 = CONICAL_SURFACE ( 'NONE', #218, 14.25881904510590900, 1.308996939000000000 ) ;
#187 = ORIENTED_EDGE ( 'NONE', *, *, #151, .F. ) ;
#188 = AXIS2_PLACEMENT_3D ( 'NONE', #265, #111, #63 ) ;
#189 = CARTESIAN_POINT ( 'NONE',  ( 5.000000000000000900, 6.123233995736768300E-016, 0.0000000000000000000 ) ) ;
#190 = CARTESIAN_POINT ( 'NONE',  ( 0.01142320932989089800, 15.15706076493379800, -7.578530382466898800 ) ) ;
#191 = SHAPE_DEFINITION_REPRESENTATION ( #29, #57 ) ;
#192 = DIRECTION ( 'NONE',  ( 1.000000000000000000, 1.140559574803256200E-016, 6.938006099602051700E-033 ) ) ;
#193 = VERTEX_POINT ( 'NONE', #9 ) ;
#194 = FACE_OUTER_BOUND ( 'NONE', #169, .T. ) ;
#195 = DIRECTION ( 'NONE',  ( -1.000000000000000000, -1.224646799147350000E-016, -0.0000000000000000000 ) ) ;
#196 = DIRECTION ( 'NONE',  ( 1.000000000000000000, 1.224646799147350000E-016, 0.0000000000000000000 ) ) ;
#197 = AXIS2_PLACEMENT_3D ( 'NONE', #224, #90, #91 ) ;
#198 = CARTESIAN_POINT ( 'NONE',  ( 1.923223286273251200, 29.42693080706730800, 14.71346540353365400 ) ) ;
#199 = CARTESIAN_POINT ( 'NONE',  ( 2.296642442585003200, 30.00000000000000400, -15.00000000000000200 ) ) ;
#200 = CARTESIAN_POINT ( 'NONE',  ( 2.076839269193320100E-017, 7.535898384862240300, 0.0000000000000000000 ) ) ;
#201 = CARTESIAN_POINT ( 'NONE',  ( 1.923223286273255000, 2.355269241580199300E-016, -14.71346540353365400 ) ) ;
#202 = CARTESIAN_POINT ( 'NONE',  ( 2.767326987978963300, -29.99999999999999600, 14.99999999999999800 ) ) ;
#203 = ORIENTED_EDGE ( 'NONE', *, *, #279, .F. ) ;
#204 = AXIS2_PLACEMENT_3D ( 'NONE', #227, #140, #184 ) ;
#205 =( LENGTH_UNIT ( ) NAMED_UNIT ( * ) SI_UNIT ( .MILLI., .METRE. ) );
#206 = EDGE_LOOP ( 'NONE', ( #36 ) ) ;
#207 = ADVANCED_FACE ( 'NONE', ( #143, #125 ), #61, .F. ) ;
#208 =( LENGTH_UNIT ( ) NAMED_UNIT ( * ) SI_UNIT ( .MILLI., .METRE. ) );
#209 = DIRECTION ( 'NONE',  ( -1.000000000000000000, -1.224646799147350000E-016, -0.0000000000000000000 ) ) ;
#210 = FACE_OUTER_BOUND ( 'NONE', #8, .T. ) ;
#211 = AXIS2_PLACEMENT_3D ( 'NONE', #179, #175, #245 ) ;
#212 = PRODUCT_DEFINITION_CONTEXT ( 'detailed design', #10, 'design' ) ;
#213 = DIRECTION ( 'NONE',  ( -1.224646799147350000E-016, 1.000000000000000000, 0.0000000000000000000 ) ) ;
#214 = DIRECTION ( 'NONE',  ( -9.130123557772668300E-017, 1.000000000000000000, 0.0000000000000000000 ) ) ;
#215 = FACE_OUTER_BOUND ( 'NONE', #130, .T. ) ;
#216 = FILL_AREA_STYLE ('',( #17 ) ) ;
#217 = CARTESIAN_POINT ( 'NONE',  ( 1.813517205190215300E-015, -14.80849177454970100, -7.404245887274850400 ) ) ;
#218 = AXIS2_PLACEMENT_3D ( 'NONE', #108, #192, #86 ) ;
#219 = ORIENTED_EDGE ( 'NONE', *, *, #151, .T. ) ;
#220 = CARTESIAN_POINT ( 'NONE',  ( -1.751863384126590400E-015, 14.98352498643769500, 7.491762493218847600 ) ) ;
#221 = CARTESIAN_POINT ( 'NONE',  ( 1.923223286273258600, -29.42693080706730800, 14.71346540353365400 ) ) ;
#222 =( LENGTH_UNIT ( ) NAMED_UNIT ( * ) SI_UNIT ( .MILLI., .METRE. ) );
#223 = AXIS2_PLACEMENT_3D ( 'NONE', #237, #242, #65 ) ;
#224 = CARTESIAN_POINT ( 'NONE',  ( 3.750000000000000000, 4.592425496802579900E-016, 0.0000000000000000000 ) ) ;
#225 = FACE_OUTER_BOUND ( 'NONE', #19, .T. ) ;
#226 = CARTESIAN_POINT ( 'NONE',  ( 9.067586025951078500E-016, -7.404245887274854000, -14.80849177454969700 ) ) ;
#227 = CARTESIAN_POINT ( 'NONE',  ( 1.801401161689886600, 2.206080166643847300E-016, 0.0000000000000000000 ) ) ;
#228 = ORIENTED_EDGE ( 'NONE', *, *, #260, .T. ) ;
#229 = ORIENTED_EDGE ( 'NONE', *, *, #51, .T. ) ;
#230 = PRODUCT_DEFINITION ( 'UNKNOWN', '', #145, #212 ) ;
#231 = PRESENTATION_STYLE_ASSIGNMENT (( #31 ) ) ;
#232 = PLANE ( 'NONE',  #13 ) ;
#233 = FACE_OUTER_BOUND ( 'NONE', #98, .T. ) ;
#234 = AXIS2_PLACEMENT_3D ( 'NONE', #80, #284, #34 ) ;
#235 = DIRECTION ( 'NONE',  ( -1.826024711554533700E-016, 1.000000000000000000, 0.0000000000000000000 ) ) ;
#236 = AXIS2_PLACEMENT_3D ( 'NONE', #289, #238, #16 ) ;
#237 = CARTESIAN_POINT ( 'NONE',  ( 2.500000000000000400, 3.061616997868392500E-016, 0.0000000000000000000 ) ) ;
#238 = DIRECTION ( 'NONE',  ( 1.000000000000000000, 1.224646799147350000E-016, 0.0000000000000000000 ) ) ;
#239 = VERTEX_POINT ( 'NONE', #12 ) ;
#240 = CLOSED_SHELL ( 'NONE', ( #28, #207, #122, #95, #276, #55, #144, #101, #73, #185 ) ) ;
#241 = CARTESIAN_POINT ( 'NONE',  ( -1.813517205190215300E-015, 14.80849177454970100, -7.404245887274850400 ) ) ;
#242 = DIRECTION ( 'NONE',  ( 1.000000000000000000, 1.224646799147350000E-016, 0.0000000000000000000 ) ) ;
#243 = CARTESIAN_POINT ( 'NONE',  ( 1.801401161689886600, 2.206080166643847300E-016, -14.25881904510250200 ) ) ;
#244 =( BOUNDED_SURFACE ( )  B_SPLINE_SURFACE ( 3, 3, ( 
 ( #118, #156, #246, #159, #202, #25, #180 ),
 ( #44, #199, #155, #270, #23, #176, #67 ),
 ( #201, #22, #198, #66, #221, #88, #136 ),
 ( #243, #46, #134, #2, #92, #3, #69 ) ),
 .UNSPECIFIED., .F., .T., .T. ) 
 B_SPLINE_SURFACE_WITH_KNOTS ( ( 4, 4 ),
 ( 4, 3, 4 ),
 ( 0.0000000000000000000, 1.000000000000000000 ),
 ( 0.0000000000000000000, 0.5000000000000000000, 1.000000000000000000 ),
 .UNSPECIFIED. ) 
 GEOMETRIC_REPRESENTATION_ITEM ( )  RATIONAL_B_SPLINE_SURFACE ( (
 ( 1.000000000000000000, 0.3333333333333333100, 0.3333333333333333100, 1.000000000000000000, 0.3333333333333333100, 0.3333333333333333100, 1.000000000000000000),
 ( 0.8622355601941527100, 0.2874118533980508600, 0.2874118533980508600, 0.8622355601941527100, 0.2874118533980508600, 0.2874118533980508600, 0.8622355601941527100),
 ( 0.8622355601941527100, 0.2874118533980508600, 0.2874118533980508600, 0.8622355601941527100, 0.2874118533980508600, 0.2874118533980508600, 0.8622355601941527100),
 ( 1.000000000000000000, 0.3333333333333333100, 0.3333333333333333100, 1.000000000000000000, 0.3333333333333333100, 0.3333333333333333100, 1.000000000000000000) ) ) 
 REPRESENTATION_ITEM ( '' )  SURFACE ( )  );
#245 = DIRECTION ( 'NONE',  ( -1.156482317317871500E-016, 1.000000000000000000, 0.0000000000000000000 ) ) ;
#246 = CARTESIAN_POINT ( 'NONE',  ( 2.767326987978956600, 29.99999999999999600, 14.99999999999999800 ) ) ;
#247 = CARTESIAN_POINT ( 'NONE',  ( 9.067586025951070600E-016, -7.404245887274848700, 14.80849177454970300 ) ) ;
#248 = FACE_OUTER_BOUND ( 'NONE', #116, .T. ) ;
#249 = ORIENTED_EDGE ( 'NONE', *, *, #154, .F. ) ;
#250 =( NAMED_UNIT ( * ) PLANE_ANGLE_UNIT ( ) SI_UNIT ( $, .RADIAN. ) );
#251 = FILL_AREA_STYLE ('',( #181 ) ) ;
#252 = VERTEX_POINT ( 'NONE', #72 ) ;
#253 = STYLED_ITEM ( 'NONE', ( #255 ), #160 ) ;
#254 =( BOUNDED_CURVE ( )  B_SPLINE_CURVE ( 3, ( #68, #178, #247, #157, #226, #48, #70 ),
 .UNSPECIFIED., .T., .T. ) 
 B_SPLINE_CURVE_WITH_KNOTS ( ( 4, 3, 4 ),
 ( 0.0000000000000000000, 0.5000000000000000000, 1.000000000000000000 ),
 .UNSPECIFIED. ) 
 CURVE ( )  GEOMETRIC_REPRESENTATION_ITEM ( )  RATIONAL_B_SPLINE_CURVE ( ( 1.000000000000000000, 0.3333333333333333700, 0.3333333333333333700, 1.000000000000000000, 0.3333333333333333700, 0.3333333333333333700, 1.000000000000000000 ) ) 
 REPRESENTATION_ITEM ( '' )  );
#255 = PRESENTATION_STYLE_ASSIGNMENT (( #138 ) ) ;
#256 = CIRCLE ( 'NONE', #75, 4.750000000000000000 ) ;
#257 = PRODUCT ( 'FULLVAC BP1KF10', 'FULLVAC BP1KF10', '', ( #124 ) ) ;
#258 = CARTESIAN_POINT ( 'NONE',  ( 0.03407417371093174300, 4.172882776868326500E-018, -7.663064932377370300 ) ) ;
#259 = VERTEX_POINT ( 'NONE', #163 ) ;
#260 = EDGE_CURVE ( 'NONE', #252, #252, #106, .T. ) ;
#261 = DIRECTION ( 'NONE',  ( 1.000000000000000000, 1.224646799147350000E-016, 0.0000000000000000000 ) ) ;
#262 = DIRECTION ( 'NONE',  ( -9.903889989678163400E-017, 1.000000000000000000, 0.0000000000000000000 ) ) ;
#263 = VERTEX_POINT ( 'NONE', #182 ) ;
#264 = ORIENTED_EDGE ( 'NONE', *, *, #167, .F. ) ;
#265 = CARTESIAN_POINT ( 'NONE',  ( 3.500000000000000000, 4.286263797015740000E-016, 0.0000000000000000000 ) ) ;
#266 =( GEOMETRIC_REPRESENTATION_CONTEXT ( 3 ) GLOBAL_UNCERTAINTY_ASSIGNED_CONTEXT ( ( #1 ) ) GLOBAL_UNIT_ASSIGNED_CONTEXT ( ( #208, #250, #161 ) ) REPRESENTATION_CONTEXT ( 'NONE', 'WORKASPACE' ) );
#267 = CARTESIAN_POINT ( 'NONE',  ( 2.767326987978961900, 3.388998138022527900E-016, 0.0000000000000000000 ) ) ;
#268 = DIRECTION ( 'NONE',  ( 1.000000000000000000, 1.224646799147350000E-016, 0.0000000000000000000 ) ) ;
#269 = EDGE_LOOP ( 'NONE', ( #4 ) ) ;
#270 = CARTESIAN_POINT ( 'NONE',  ( 2.296642442585006700, 2.812575816097689400E-016, 15.00000000000000000 ) ) ;
#271 = MECHANICAL_DESIGN_GEOMETRIC_PRESENTATION_REPRESENTATION (  '', ( #253 ), #96 ) ;
#272 = DIRECTION ( 'NONE',  ( -1.000000000000000000, -1.224646799147350000E-016, 0.0000000000000000000 ) ) ;
#273 = SURFACE_SIDE_STYLE ('',( #102 ) ) ;
#274 = ORIENTED_EDGE ( 'NONE', *, *, #135, .T. ) ;
#275 = AXIS2_PLACEMENT_3D ( 'NONE', #21, #196, #262 ) ;
#276 = ADVANCED_FACE ( 'NONE', ( #248, #146 ), #244, .T. ) ;
#277 = CIRCLE ( 'NONE', #64, 15.00000000000000000 ) ;
#278 = CARTESIAN_POINT ( 'NONE',  ( 5.000000000000000000, 4.750000000000000900, 0.0000000000000000000 ) ) ;
#279 = EDGE_CURVE ( 'NONE', #193, #193, #7, .T. ) ;
#280 =( BOUNDED_SURFACE ( )  B_SPLINE_SURFACE ( 3, 3, ( 
 ( #258, #282, #149, #15, #105, #164, #35 ),
 ( #81, #190, #285, #168, #56, #150, #104 ),
 ( #132, #60, #220, #37, #85, #114, #171 ),
 ( #172, #241, #18, #82, #40, #217, #291 ) ),
 .UNSPECIFIED., .F., .T., .T. ) 
 B_SPLINE_SURFACE_WITH_KNOTS ( ( 4, 4 ),
 ( 4, 3, 4 ),
 ( 0.0000000000000000000, 1.000000000000000000 ),
 ( 0.0000000000000000000, 0.5000000000000000000, 1.000000000000000000 ),
 .UNSPECIFIED. ) 
 GEOMETRIC_REPRESENTATION_ITEM ( )  RATIONAL_B_SPLINE_SURFACE ( (
 ( 1.000000000000000000, 0.3333333333333333100, 0.3333333333333333100, 1.000000000000000000, 0.3333333333333333100, 0.3333333333333333100, 1.000000000000000000),
 ( 0.9942965742492069200, 0.3314321914164022900, 0.3314321914164022900, 0.9942965742492069200, 0.3314321914164022900, 0.3314321914164022900, 0.9942965742492069200),
 ( 0.9942965742492069200, 0.3314321914164022900, 0.3314321914164022900, 0.9942965742492069200, 0.3314321914164022900, 0.3314321914164022900, 0.9942965742492069200),
 ( 1.000000000000000000, 0.3333333333333333100, 0.3333333333333333100, 1.000000000000000000, 0.3333333333333333100, 0.3333333333333333100, 1.000000000000000000) ) ) 
 REPRESENTATION_ITEM ( '' )  SURFACE ( )  );
#281 = COLOUR_RGB ( '',0.7450980392156862900, 0.7450980392156862900, 0.7450980392156862900 ) ;
#282 = CARTESIAN_POINT ( 'NONE',  ( 0.03407417371092987000, 15.32612986475473900, -7.663064932377369400 ) ) ;
#283 = CIRCLE ( 'NONE', #24, 4.750000000000000000 ) ;
#284 = DIRECTION ( 'NONE',  ( 1.000000000000000000, 1.224646799147350000E-016, 0.0000000000000000000 ) ) ;
#285 = CARTESIAN_POINT ( 'NONE',  ( 0.01142320932989089800, 15.15706076493379800, 7.578530382466898800 ) ) ;
#286 =( GEOMETRIC_REPRESENTATION_CONTEXT ( 3 ) GLOBAL_UNCERTAINTY_ASSIGNED_CONTEXT ( ( #126 ) ) GLOBAL_UNIT_ASSIGNED_CONTEXT ( ( #205, #6, #76 ) ) REPRESENTATION_CONTEXT ( 'NONE', 'WORKASPACE' ) );
#287 = FACE_OUTER_BOUND ( 'NONE', #71, .T. ) ;
#288 = PRESENTATION_LAYER_ASSIGNMENT (  '', '', ( #253 ) ) ;
#289 = CARTESIAN_POINT ( 'NONE',  ( 5.000000000000000000, 6.123233995736771200E-016, 0.0000000000000000000 ) ) ;
#290 = ORIENTED_EDGE ( 'NONE', *, *, #279, .T. ) ;
#291 = CARTESIAN_POINT ( 'NONE',  ( 0.0000000000000000000, 0.0000000000000000000, -7.404245887274850400 ) ) ;
ENDSEC;
END-ISO-10303-21;
